Clandestino

113 Vicios

Genero:

Tablatura

Em            G         C
Besare las humedades de tu cuerpo
Em G C
Y tu boca de muerte
Em G C Em G C
Y tu cuerpo derrumbándoseee besare
Am C D Em
Apocalíptico carnaval devorador de tus sueños
Am C D Em
Apocalíptico carnaval devorador de tus sueños
C C-D
Ensombrecidos por un mar de saliva y sangre

Clandestino… clandestino… clandestino… clandestino…

E|-------------------------8--8--8--|
B|-------------------------8--8--8--| (se toca cuando
G|-------------------------9--9--9--| canta clandestino…)
D|-------------------------10-10-10-| creo que suena parecido!
A|-7-7-10-7-12-10-9-7-9-10----------|

E|-------------------------7-7-7-|
B|-------------------------7-7-7-|
G|-------------------------8-8-8-|
D|-------------------------9-9-9-|
A|-7-7-10-7-12-10-9-7-9-10-------|

E|-------------------------8--8--8--|
B|-------------------------8--8--8--|
G|-------------------------9--9--9--|
D|-------------------------10-10-10-|
A|-7-7-10-7-12-10-9-7-9-10----------|

D|------------------9-|
A|-7-7-10-7-12-10-9-7-|


Sigue así:(mim sol do)(4 veces)(lam do re mim)(2veces)
Y termina con Do re y repite el riff de arriba

Em G C Em G C
Morderé con la bronca que le sobra a este cuerpo a mi mujer
Em G C Em G C
Y tu cuerpo derrumbándoseee besare
Am C D Em
Apocalíptico carnaval devorador de tus sueños
Am C D Em
Apocalíptico carnaval devorador de tus sueños
C C-D
Ensombrecidos por un mar de saliva y sangre

Clandestino… clandestino… clandestino… clandestino…

Repite toda la introducción del medio con riff y notas hasta el final.