Amargo

113 Vicios

Genero:

Tablatura

INTRO:
C D Em C D Em C D Em
E|--------2------0----------2---------0------------2-----0---|
B|----1----3------0------1---3---------0------1---3-------0--|
G|-------2--2------0----------2---------0----0---2---------0-|
D|--2--0-------2----2--2---0---0----2----2--2---0------2----2|
A|-3----------2-------3------------2-------3----------2------|
E|-----------0--------------------0------------------0-------|

C B7 Em C B7 Em D D4 D
E|---------------0------------------0-----2--3--2-|
B|----1----4------0------1----4------0----3--3--3-|
G|-----0----2------0------0----2------0---2--2--2-|
D|--2----4-----2----2--2----4-----2-----2-0--0--0-|
A|-3----2-----2-------3----2-----2----------------|
E|-----------0------------------0-----------------|

C D Em
Este país de los hombres húmedos
C D Em
O lo del ángel negro
C D Em
Y me contó una historia triste
C B7 Em
Para que no me durmiera sin emocionarme
C B7 Em D D4 D
Para que no me durmiera sin emocionarme…

Em Am G Em Am G
Pero... yo no creo nada ni en los besos de la muerte
Em Am G Em
Pero... yo no creo nada ni en los besos de la muerte
C Em C Em C D
Amargo… amaaaargo… Amargo… amaaaargo… amar...go go…

C D Em
La pasión a muerto
C D Em
La encerraron dentro de un globo de látex
C D Em
Mi generación fue vomitada
C B7 Em C B7 Em D D4 D
Haaacia la nadaaaa… haaacia la nadaaaaaaaa…

Em Am G Em Am G
Pero... yo no creo nada ni en los besos de la muerte
Em Am G Em
Pero... yo no creo nada ni en los besos de la muerte

C Em C Em C D
Amargo… amaaaargo… Amargo… amar...go go…


SOLO GUITARRA:(Do re mim)(por 3)(Do si7 mim)(por 2) re re4 re


Em Am G Em Am G
Pero... yo no creo nada ni en los besos de la muerte
Em Am G Em
Pero... yo no creo nada ni en los besos de la muerte
C Em C Em C Em
Amargo… amaaaargo… Amargo… amaaargo… amargo amar... go

C Em go…
C Em C Em D|--2-2-2-------2---2-2-2-----------------|
go… go… A|-3-3----3-3-3-2--3-3------2-3-5-3-------|
E|-------3-3----0--------3-5--------5-3-0-|
(y termina
en Em)