Rebelión

208

Intro:

Primera guitarra:
|------------------------------------------------------------------------|
|------------------------------------------------------------------------|
|------------------------------------------------------------------------|
|------------------------------------------------------------------------|
|-7-7-7-7---7-9-7-9-7---10-10-10-10----10-12-10-7---2-2-2-2---2-4-2-4-2--|
|---------7-------------------------10----------------------2------------|

|------------------------|
|------------------------|
|------------------------|
|------------------------|
|-5-5-5-5---5-7-5---5----|
|---------5-------5------|

segunda guitarra:

|--------------------|
|--------------------|
|-9-------------7----|
|-9---5----9----7----| Esto también se toca en el verso
|-7---5----9----5----|
|-----3----7---------|

coro:

|-----------------------------------------------------------------|
|-----------------------------------------------------------------|
|-9-9-9-9-9-9-9-9---------------------------------------7-7-7-7-7-|
|-9-9-9-9-9-9-9-9---5-5-5-5-5-5-5-5---9-9-9-9-9-9-9-9---7-7-7-7-7-|
|-7-7-7-7-7-7-7-7---5-5-5-5-5-5-5-5---9-9-9-9-9-9-9-9---5-5-5-5-5-|
|-------------------3-3-3-3-3-3-3-3---7-7-7-7-7-7-7-7-------------|

|----------|
|----------|
|-7-7-7----|
|-7-7-7----|
|-5-5-5----|
|----------|

solo de guitarra:

|------------------------------------------------------------------|
|------------------------------------------------------------------|
|-4--4-5-4-----------3-4-------------7-5-4-7-5-4----9----9-11-9-12-|
|----------7-5---5-7-----4---4-5-4-2------------------12-----------|
|------------------------------------------------------------------|
|------------------------------------------------------------------|

|---------------------------------------------------|
|------------------------------15-13-12-15-13-12----|
|----12-14-16-11---11-12-11-------------------------|
|-12------------------------14----------------------|
|---------------------------------------------------|
|---------------------------------------------------|

Let\'s Go!


Verso:
Salgo a la calle y veo que el mundo está mal
la gente vende su derecho o libertad
el consumismo nos atrapa sin piedad
todo se vende ya no existe dignidad

Go!

Voy contra el viento a su mismo rumbo
todos me dicen que aya no hay futuro
que de sueños no se obtiene el dinero
creo que el dinero solo nos convierte en presos

vamos a luchar contra el sistema y la opresión
gritaremos rebelión a su mundo de ignorantes
no dejar pasar los años sin una presión,
sin una solución a su pueblo demandante


wuoooo!

No considero que nada de esto es absurdo
mis ideales podrán cambiar este mundo
si alguien me tumba volveré a levantarme
aquí estaré si alguien quiere doblegarme

coro:
vamos a luchar contra el sistema y la opresión
gritaremos rebelión a su mundo de ignorantes
no dejar pasar los años sin una presión,
sin una solución a su pueblo demandante

wuoooo!

========================================
Bueno señores esta es mi tercera transcripción
de esta banda rifada de punk rock 208 proveniente
del mismísimo Guadalajara, un salúdo para el Christian
guitarro de los 208 y a toda su banda, dejo mi correo
para colaborar con cualquier corrección.
Sinchosk8@hotmail.com

Lucha, piensa, protesta, sobrevive.