La Ruta Del Venado

1280 Almas

Una excelente canción, de una banda realmente épica, orgullo
para nuestra música. Por favor cualquier sugerencia, corrección o
madrazo, contacten a dbarbosagomez@gmail.com.
Que viva el Rock colombiano, carajo!

Intro:

e----------------------------------------------------------
B----------------------------------------------------------
G----------------------------------------------------------
D----------------------------------------------------------
A---7--5/7-5/3-3--2/3-2---2-3-5-(/7)7----------------------
E----------------------------------------------------------

e----------------------------------------------------------
B----------------------------------------------------------
G----------------------------------------------------------
D----------------------------------------------------------
A---7--5/7-5/3-3--3-2---2-3-5-(/7)7------------------------
E----------------------------------------------------------

E5 C5 x2 B5 x2 E5 x 2
e------------------------------------------------------------------------
B------------------------------------------------------------------------
G---9-9---9-9---9-9---9-9------5-5---5-5------4-4---4-4-------9-9--9-9---
D---x-x---x-x---x-x---x-x------x-x---x-x------x-x---x-x-------x-x--x-x---
A---7-7---7-7---7-7---7-7------3-3---3-3------2-2---2-2-------7-7--7-7---
E------------------------------------------------------------------------


E5(Em) C5(C) B5(Bm) E5(Em)
Tu destino es caminar no lo debes olvidar, el llamado en la distancia
C5(C) B5(Bm)
Si tu tribu ya partió esta el rastro que dejo
E5(Em)
Nunca pierdas la esperanza
E5(Em) C5(C) A5
En tu mente esta la ruta y en tu alma esta el lugar
E5
siempre a un tiro de tu lanza.
C5(C)
Este cuerpo hay que mover
A5 E5(Em)
Nada le puedes hacer, es el signo de tu raza
C5(C) A5
Los que no se sientan bien, los que correr tras el tren,
E5(Em)
en la senda esta su casa

Intermedio:

e----------------------------------------------------------
B--13-15-15-13-15-15-13-15-15-13-15-15-13-15-15------------
G----------------------------------------------------------
D----------------------------------------------------------
A----------------------------------------------------------
E----------------------------------------------------------

e----------------------------------------------------------
B----------------------------------------------------------
G--12-14-14-12-14-14-12-14-14-12-14-14-12-14-14------------
D----------------------------------------------------------
A----------------------------------------------------------
E----------------------------------------------------------

e----------------------------------------------------------
B----------------------------------------------------------
G----------------------------------------------------------
D--12-14-14-12-14-14-12-14-14-12-14-14-12-14-14------------
A----------------------------------------------------------
E----------------------------------------------------------

e----------------------------------------------------------
B--------------------------------------------13-15---------
G--------------------------------------12-14---------------
D--------12-14-------12-14-------12-14--------------------- (x2)
A--12-14-------12-14-------12-14---------------------------
E----------------------------------------------------------


Coro

(D5)E5 D5 G5 A5 (D5)E5 D5 G5 A5
Amanecer marchando, amanecer cansa’o
(D5) E5 D5 G5 A5 (D5)E5 D5 G5 A5
La vida vale poco en la ruta el vena’o
(D5)E5 D5 G5 A5 (D5)E5 D5 G5 A5
Amanecer cantando, amanecer marca’o
(D5) E5 D5 G5 A5 (D5)E5 D5 G5 A5
La vida vale poco si no te la has juga’o

Intro x 1

(E5 C5 B5 E5)
Este frío no es real, solo es la forma del mal que te quiere hacer de piedra
Solo queda caminar si te quieres escapar de que crezca en ti la hierba
(E5 C5 A5 E5)
Cada paso que tu das algo va quedando atrás sin siquiera darte cuenta
Así que no llores ya, el pasado está de más y hace tu vida más lenta
Cazador, recolector, mujeriego y bebedor, siempre hay que cerrar la grieta

Intermedio x 2

(D5)E5 D5 G5 A5 (D5)E5 D5 G5 A5
Amanecer bailando, amanecer pasa’o
(D5) E5 D5 G5 A5 (D5)E5 D5 G5 A5
La vida vale poco si no suena un tumbao
(D5)E5 D5 G5 A5 (D5)E5 D5 G5 A5
Amanecer gritado, amanecer sangra’o
(D5) E5 D5 G5 A5 (D5)E5 D5 G5 A5
La vida vale poco si no te la has juga’o