Hombre Bomba

1280 Almas

estos son los efectos en guitarra

INTRO:

E|-------------------------------------------------------------------------|
B|-------------------------------------------------------------------------|
G|---------------12--13--12h13h12--9--12---------------12--13--12h13h12--9-|
D|-------------------------------------------------------------------------|
A|-------------------------------------------------------------------------|
E|---0--12--0-------------------------------0--12--0-----------------------|



E|-------------------------------------------------------|
B|-------------------------------------------------------|
G|---------------12--13--12h13h12--9--12--9--7--4--0-----|
D|----------------------------------------------------2--|
A|-------------------------------------------------------|
E|---0--12--0--------------------------------------------|


VERSOS:

E|-------------------------------------------------|
B|-------------------------------------------------|
G|-------9-7-9-7-4-7-4-------9-7-9-7-4-7-12--------|
D|-------------------------------------------------|
A|---7-------------------7-------------------------|
E|-------------------------------------------------|


CORO:
E5 B5
E|----------------------------------------|
B|----------------------------------------|
G|--999999999999999999--------------------|
D|--999999999999999999-9999999999999999---|
A|--777777777777777777-9999999999999999---|
E|---------------------7777777777777777---|



espero que les haya servido...