Ectoplasma

1280 Almas

este es el intro (solo) va sin pisar los trastes muy fuerte

e-----------------------------------------------------
a--17----------17----------17----------17------------- (4x)
d-----19----19----19----------19----19----19----19----
g--------18----------18----------18----------18-------

luego viene otro intro donde entra primero la guitarra

-------8-----10-----7--------------8-----10-----7-----
-7---------------------------7------------------------ (8x)
------------------------------------------------------
------------------------------------------------------

que por que la...

-------8-----10-----7--------------8-----10-----7-----
-7---------------------------7------------------------ (4x)
------------------------------------------------------
------------------------------------------------------

luego viene mas rapido

no hay perdon.....

-------8-8-8-10-10-10-7-7-7-------8-8-8-10-10-10-7-7-7---
-7-7-7----------------------7-7-7------------------------ (4x)
---------------------------------------------------------
---------------------------------------------------------

no hay perdon para aquellos..

-------8-----10-----7--------------8-----10-----7-----
-7---------------------------7------------------------ (4x)
------------------------------------------------------
------------------------------------------------------

ya no hay voz..

-------8-8-8-10-10-10-7-7-7-------8-8-8-10-10-10-7-7-7---
-7-7-7----------------------7-7-7------------------------ (4x)
---------------------------------------------------------
---------------------------------------------------------

-------8-----10-----7--------------8-----10-----7-----
-7---------------------------7------------------------ (4x)
------------------------------------------------------
------------------------------------------------------

en un pueblo fantasma...

-------8-----10-----7--------------8-----10-----7-----
-7---------------------------7------------------------ (4x)
------------------------------------------------------
------------------------------------------------------

no hay perdon.....

-------8-8-8-10-10-10-7-7-7-------8-8-8-10-10-10-7-7-7---
-7-7-7----------------------7-7-7------------------------ (4x)
---------------------------------------------------------
---------------------------------------------------------

solo

-------8-----10-----7--------------8-----10-----7-----
-7---------------------------7------------------------ (2x)
------------------------------------------------------
------------------------------------------------------

en un mundo...

-------8-----10-----7--------------8-----10-----7-----
-7---------------------------7------------------------ (4x)
------------------------------------------------------
------------------------------------------------------

no hay perdon.....

-------8-8-8-10-10-10-7-7-7-------8-8-8-10-10-10-7-7-7---
-7-7-7----------------------7-7-7------------------------ (8x)
---------------------------------------------------------
---------------------------------------------------------

final

-------8-----10-----7--------------8-----10-----7-----
-7---------------------------7------------------------
------------------------------------------------------
------------------------------------------------------