Tan Abajo

La Triple Nelson

E|-----------------------------------------------------
B|-------0-------------------0-------------0-----------
G|-----0---0-------------0-------0-------0---0---------
D|---4-------4---(4)---4---4---4---4---4-------4---(4)-
A|-7-----------7-----6---------------5-----------5-----
E|-----------------------------------------------------

----------------------------------------------------0-------*|
--------0-------------5---------------------------0---0-----*|
----0-------0-------0---0---------0-----0-------0-------0---*|
--4---4---4---4---4-------4-----0-----0---------------------*|
4---------------3-----------3-2-----0-----------------------*|
------------------------------------------3/2-0-----------0-*|

*: armonicos en el 12 (no sabía como ponerlos)

Esto es la intro y los primeros dos versos,
pero en el segundo en vez de hacer los armonicos hace un Mim


Yendo tan abajo creo que no vas ni a tocar el suelo
Toda vida pasa muchas veces por caminos inciertos

G D
Esa luz que te enceguece
Am Em
No te deja ni alcanzarte a vos

G D Am Em
Es esa luz que te enceguece que no te deja ni alcanzarte a vos

Repite la intro y ta.

Es una canción re linda pero media triste y bien cortita,
relativamente fácil.
Es la primera que subo y ta sacada de oído,
así que si tiene errores corríjanme.
Saludos, suerte y aguante la triple!