Sin Tu ángel

La Triple Nelson

Intro:(Riff)                     D9
e-------------------------------------|
B------------------------------------5|
G---3p2-0h2--------------------------5|
D-----------2--1-2---0-2-0-----------4|
A------------3------0-0---2-1-0------5|
E------------------------------3-2-0--|

e------------------------------------|
B---------------------------------2/5|
G---3p2-0h2--------------------------|
D-----------2--1-2---0-2-0-----------|
A------------3------0-0---2-1-0------|
E------------------------------3-2---|


E9 E9
Se despierta en la noche, se pinta los labios,
E9 E9 D8 E8 D8 E8 E8
se pone los tacos, y la calle a yirar.
E9 E9
Sola en la madrugada, se detiene un auto,
E9 E9 D8 E8 D8 E8 E8
solo una pregunta, y todo vuelve a empezar.
A C9/G F#7 Fm (Riff 1)
Y la noche te sorprende, sin tu ángel ahí atrás.
E9 E9
Julio sale a la calle, la noche esta buena,
E9 D8 E8 D8 E8 E8
la fabrica esta cerca, pero hoy no va a llegar.
E9 E9
Aguantando en la esquina, el fierro esta cargado,
E9 E9 D8 E8 D8 E8 E8
la sangre caliente, algún palomo caerá
A C9/G F#7 Fm (Riff)
Y la noche te sorprende, sin tu ángel ahí atrás.
A C9/G F#7 Fm
Y la noche te sorprende.
N/A
Jhonny vive en el sexto whisky en la mañana no hay ninguna dama,
D8 E8 D8 E8 E8
creo que hoy quiere volar.
E9 E9
No hay espejo que alcance, el balcón esta cerca,
E9 E9 D8 E8 D8 E8 E8
el cemento esta fresco todo va a terminar.
A C9/G F#7 Fm (Riff)
Y la noche te sorprende, sin tu ángel ahí atrás.
A C9/G F#7 Fm
Y la noche, te sorprende sin tu ángel

e----------------------------------|
B----------------------------------|
G--3p2-0h2-0-----------------------|
D-----------2---1-2--2-0-----------|x2
A--------------3--------2---2-1-0--|
E----------------------------------|

B---------------------------------------------------|
G-15p14-12h14-12------------------------------------|
D----------------14-----13-14--14-12----------------|
A---------------------15------------14----14-13-12--|
E---------------------------------------------------|

B----------------------------------------------|
G-15p14-12h14-12-------------------------------|
D----------------14-----13-14--14-12-----------|
A---------------------15------------14---------|
E-----------------------------------------3-2-0|
h:hammer on /:deslizamiento
p:pull of

Acordes:
E9:x7677x A:x02220 F#7:242322
D8:x5x7xx C9/G:3x233x
E8:x7x9xx Fm:133111

ACLARACIONES
-Algunos acordes continuos que se repiten los puse así para
que se note maso menos cuando mutea las cuerdas.
-Si no van escuchando el tema mientras lo tocan no lo sacan ni en pe2.
-El D9 del riff 1 es rasgueado mas de una vez.
-El C9/G lo podes hacer en el 3er traste como un G7 y al
A en el 5to traste y suena bien igual.
-El N/A significa ningún acorde, osea que se canta sin tocar
-Los punteos del final son los mismos solo que mas lentos y a lo último
hace las mismas notas pero en el traste 12, es decir una 8va mas abajo.
-Es un tema relativamente fácil si conoces los acordes y te aprendes
el riff.
-No saco el solo porque no tengo wah wah y se me cae un huevo

Cualquier duda o aporte me lo hacen por acá o por mi ig(@kevinverges)
o mi tw(@KevinVerges)Salu2