Petalo De Sal

La Triple Nelson

Intro:
C#m7
e----------------------------------------------------4-|
B----------------------------------------------------5-|
G----8-7-8-7--7---7---------6-5-6-------------6------4-|
D---5-------5---5----5-6-7--------5h7-5--5-6-7-5-4---6-|
A----------------------------------------------------4-|
E------------------------------------------------------|

Fm7* D#m7
Furioso pétalo de sal
Fm7* Cm7
La misma calle, el mismo bar
Fm7* D#m7 D#7/A# A#m7
Nada te importa en la ciudad si nadie espera
Fm7* D#m7
Ella se vuelve carmesí
Fm7* Cm7
No se si es Baires o Madrid
Fm7* D#m7 D#7/A# A#m7
Nada te importa en la ciudad si nadie espera
Fm7 Gm7
Y no es tan trágico mi amor
G#maj7 Am7b4
Es este sueño, es este sol
A#º Bdim3 Cm7
Que ayer pareció tan extraño
Cmmaj7 G7 C9maj7
O al menos tus labios
F7 A#m7
Yo te entiendo bien
F7 A#m7
Es como hablarle a la pared
F7 A#m7 C#m7
Y tú podrías darme fe

Fm7* D#m7
Furioso pétalo de sal
Fm7* Cm7
La misma calle, el mismo bar
Fm7* D#m7 D#7/A#
Nada te importa en la ciudad si nadie espera
Fm7 Gm7
Y no es tan trágico mi amor
G#maj7 Am7b4
Es este sueño, es este sol
A#º Bm Cm7
Que ayer pareció tan extraño
Cmmaj7 G7 C9maj7 F7 A#m7
O al menos tus labios,o al menos tus labios, tus labios...
F7 A#m7
Yo te entiendo bien
F7 A#m7
Es como hablarle a la pared
C7 F7* A#7
Y te imagino dando vueltas en el vecindario
Am7 D7sus2 D7 Gm7-G7 C G/B
Algo tienen estos años que me hacen poner así
Am7 D7sus2 D7
Y decirte que te extraño
Gm7-G7 Fm7* D#m7 Fm7* Cm7 Fm7* D#m7 D#7/A# A#m7*
Y voy a verte feliz...
Acordes:
Fm7*:x810898 Am7b4:5x554x C7:x323xx
D#m7:x68676 A#º:666866 A#7:686766
Cm7:x35343 Bm:7x67xx Am7:x02010
D#7/A#:6x564x Cmmaj7:x35443 D7sus2:xx0210
A#m7:6x676x G7*:353433 D7:xx0212
Fm7:131111 C9maj7:x3243x C:x3201xx
Gm7:353333 F7*:131211 G/B:x20033
G#maj7:5x665x A#m7:x13121 F7*:x878xx

((Actualizacion))
Hace poco salió una nueva versión del tema que básicamente tiene los mismos
acordes que esta, solamente que es casi todo el tema arpegiado,jugando con
la tonica y las 3 primeras notas del acorde(casi todo el tema) a veces toca
el acorde entero, hasta el cambio de tonalidad que pasa a un Semi-arpegiado
(cosas del gordo),termina en Fm7.
Intro:
Fm7 D#m7 D#7/A# A#m7
e---------------------------6--------6-|
B-8-----------------6------------------|
C--10----------10--8-------5---5-6-|
D----8----------8-----6---6----6-6---5-|
A-----9-------9--------7-7-7----4----6-|
E------11-11-8----------6--------------|

ACLARACIONES:
-Los acordes que tienen un asterisco(*) es para diferenciarlos de otros
iguales.
-Este tema requiere de ensayo ya que los acordes no son comunes por lo
cual seguramente no salga a la primera.

Cualquier duda o aporte me lo pueden enviar acá o a mi instagram:@kevinverges
o mi twitter:@KevinVerges Salu2.