Luz Lara

La Triple Nelson

Intro:
e--------3/5-----------------------3/5---5h75-|
B----5-6----5-7--7h87h8---------5-6---5-7-----|
G-5-7--------7---------6h76---5-7------7------|
D---------------------------------------------|
A---------------------------------------------|
E---------------------------------------------|

A7 D#ø A7 D#ø
Luz, sos una luz Lara
Fm/D#
sos una luz clara
F#+9 A5 Bm7/D B9/D A7
para ella, para ella y para mí
D#ø A7 D#ø Fm/D#
toda tu luz brilla, dándole luz brilla
F#+9 A5 Bm7/D B9/D A7
para ella, para ella y para mí
D7sus2C#m7
Hay dentro de ti, pétalos de miel
F#m7 Bm7 E
yo los puedo ver, sólo por tus ojos.

e--------3/5-----------------------3/5---5h75-5h75|
B----5-6----5-7--7h87h8---------5-6---5-7---------|
G-5-7--------7---------6h76---5-7------7----------|
D-------------------------------------------------|
A-------------------------------------------------|
E-------------------------------------------------|


A7 D#ø A7 D#ø
Luz, llevas mi Blues Lara
Fm/D#F#+9 A5 Bm7/D B9/D A7
Diste la luz clara a mi pena, nuestra pena hoy tiene luz
D#ø A7 D#ø
Lloras mi Blues Lara
Fm/D#F#+9 A5 Bm7/D B9/D A7
Agua cristal clara, por mis venas van tus huellas de color
D7sus2C#m7
Hay dentro de ti, pétalos de miel
F#m7 Bm7 E A7 D7sus2
yo los puedo ver, sólo por tus ojos.
A7 D7sus2
Solo por tus ojos x3
Outro:
e--------3/5-----|
B----5-6----5-7--|
G-5-7--------7---|
D----------------|
A----------------|
E----------------|

Se puede hacer la versión arpegiada,los arpegios no los pongo
porque en si no son raros, se pueden improvisar en el momento,
obvio que siguiendo los tiempos de cada acorde.

Acordes:
A7:575655 F#+9:x98910x D7sus2:x57555 Bm7:x24232
D#ø:x6767x A5:x77910x Dº:x5646 E:022100
Fm/D#:x7767x Bm7/D:10x91110x C#m7:x46454
Fº:x8979x B9/D:10:x91010x F#m7:242222

Aclaraciones:
-Este tema se toca con originalmente con un rasgueo tipo reggae,
pero también está la versión arpegiada, igual son los mismos acordes.
-En partes de la canción los tiempos son rápidos, por esto como siempre
recomiendo enteramente que escuchen el tema sino tan en la B.
-Los acordes son medios raros pero bue con practica salen.
-Tiene un sólito re corto el tema que obviamente no pienso sacar jaja

Cualquier duda o aporte son bienvenidos acá o en mi ig(@kevinverges)
o mi tw(@KevinVerges)
PD: GORDO ME TENES PODRIDO CON TUS ACORDES SE ME VA A CAER LA MANO UN
DÍA DE ESTOS
Salu3