Lunáticos

La Triple Nelson

La canción la saqué de oido, por lo que puede tener algún error,
en ese caso podrian comentarlo.

Riff de la intro y los versos.

e/-------------------------------
B/-------3----------3----------3-
G/-----2----------2----------2-2-
D/-----------------------------0-
A/-------------------------------
D/0-2-3-----0-3-2------0-2-1-----

Verso 1: (Con Riff)

¡Dale nena! Nos pasó de largo el fuego
Como estáticos, lunáticos mi amor.

¡Vamos nena! Toma el desafío
Las cadenas no nos atan mas, amor.

¡Vamos nena! Tu reloj y el mío
Todo quema, todo quema la razón.

Y dale nena, que se van las golondrinas
Como estáticos, lunáticos mi amor.

Para el estribillo, se usan estos acordes:

D5 D/C D/B A#5/Bb5
E/x E/x E/x E/X
B/3 B/3 B/3 B/X
G/2 G/2 G/2 G/3
D/0 D/0 D/0 D/3
A/x A/3 A/2 A/1
D/x D/x D/x D/X

O se pueden usar D5, C5(En el lugar de D/C), B5(En lugar de D/B) y A#5

D5 C5 B5 A#5
Y esas caras que sonríen, ya nos miran desde atrás
D5 C5 B5 A#5
esas caras que se ríen, se quedaron sin mirar
D5 C5 B5 A#5
Y esas caras que sonríen, hablan de la soledad
D5 C5 B5 A#5
Y esas caras que se ríen, ya nos miran desde atrás.

Repite la intro.

Verso 2:(Con riff de la intro)

¡Vamos nena! Tu reloj y el mío
Todo quema, todo quema la razón.

¡Dale nena! Nos pasó de largo el fuego
Como estáticos, lunáticos mi amor.

Estribillo:

D5 C5 B5 A#5
Y esas caras que sonríen, ya nos miran desde atrás
D5 C5 B5 A#5
esas caras que se ríen, se quedaron sin mirar
D5 C5 B5 A#5
Y esas caras que sonríen, hablan de la soledad
D5 C5 B5 A#5
Y esas caras que se ríen, ya nos miran desde atrás.

Interludio:Es una mezcla entre octavas y muteo, a tiempo suena bien.

e/-----------------------------------
B/------x-x---x-x--------------------
G/7-7-7-x-x-7-x-x-7--6---------------
D/------x-x---x-x--------------------
A/5-5-5-x-x-5-x-x-5--4---------------
D/-----------------------------------

e/-----------------------------------
B/------x-x---x-x--------------------
G/6-6-6-x-x-6-x-x-6--5---------------
D/------x-x---x-x--------------------
A/4-4-4-x-x-4-x-x-4--3---------------
D/-----------------------------------

e/-----------------------------------
B/------x-x---x-x--------------------
G/5-5-5-x-x-5-x-x-5--4---------------
D/------x-x---x-x--------------------
A/3-3-3-x-x-3-x-x-3--2---------------
D/-----------------------------------

e/-----------------------------------
B/-----------------------------------
G/3-2--------------------------------
D/-----------------------------------
A/1-0--------------------------------
D/----4-3-2-1------------------------

Se toca dos veces.

Solo

Estribillo:(x2)

D5 C5 B5 A#5
Y esas caras que sonríen, ya nos miran desde atrás
D5 C5 B5 A#5
esas caras que se ríen, se quedaron sin mirar
D5 C5 B5 A#5
Y esas caras que sonríen, hablan de la soledad
D5 C5 B5 A#5
Y esas caras que se ríen, ya nos miran desde atrás.

Repite interludio, solo y termina así:

e/-------------------------------
B/------x-x---x------------------
G/7-7-7-x-x-7-x-7-6--------------
D/------x-x---x------------------
A/5-5-5-x-x-5-x-5-4--------------
D/-------------------------------