Adagio De Mi País

La Triple Nelson

Intro:

Las siguientes notas se tocan varias veces muy rápido con la púa de costado
o cómo les quede mejor.

E|-----------------------------------10-9----------||
B|-7/14-12-14-12-10-12-14-12-10-7-10------7-10-9---||
G|-----------------------------------------------9-||
D|-------------------------------------------------||
A|-------------------------------------------------||
E|-------------------------------------------------||

riff
E|------------------||
B|------------------||
G|------------------||
D|------------------||
A|--------2-4-5-(4)-||
E|-0-2-4-5----------||

F#m C#7 F#m
En mi país, que tristeza
A E
La pobreza y el rencor

riff

A D A
Dice mi padre que ya llegará
E A
Desde el fondo del tiempo otro tiempo
D A
Y me dice que el sol brillará
E
Sobre un pueblo que sueña
F#m (E)
Labrando su verde solar

riff

F#m C#7 F#m
Tu no pediste la guerra
A E
Madre tierra, yo lo sé

riff

A D A
Dice mi padre que un solo traidor
E A
Puede con mil valientes/ El siente
D A
que el pueblo en su inmenso dolor
E
Hoy se niega a beber
F#m E
En la fuente clara del honor

F#m C#7 F#m //Acá cambia el rasgueo
En mi país somos duros
A (E)
El futuro lo dirá

Puente:
E|----------------------------||
B|------------------------2-3-||
G|------------------1-2-4-----||
D|--------------2-4-----------||
A|--------2-4-5---------------||
E|-0-2-4-5--------------------||

Solo en F#m
riff

Sigue igual:

En mi país que tibieza
Cuando empieza a amanecer

Dice mi pueblo que puede leer
En su mano de obrero el destino
Y que no hay adivino ni Rey
Que le pueda marcar el camino
Que va a recorrer

En mi país somos miles y miles
De lágrimas y fusiles
Un puño y un canto vibrante
Una llama encendida, un gigante
Que grita: adelante, adelante.

Esto lo canta Cary al mismo tiempo:

En mi país brillará,
Yo lo sé, el sol del pueblo
Arderá nuevamente
Alumbrando a mi tierra.

E|---------------------------------|-
B|------------------------2-3-5-7/-|-
G|------------------1-2-4----------|-
D|--------------2-4----------------|-
A|--------2-4-5--------------------|-
E|-0-2-4-5-------------------------|-

E|---------------------------------10-9----------||
B|-14-12-14-12-10-12-14-12-10-7-10------7-10-9---||
G|---------------------------------------------9-||
D|-----------------------------------------------||
A|-----------------------------------------------||
E|-----------------------------------------------||

E|-------------------------||
B|-------------------------||
G|-------------------------||
D|-------------------------||
A|--------2-4-5--4-2-------||
E|-0-2-4-5-----------5-4-0-||

Termina en F#m


C#7:
E-0-
B-2-
G-4-
D-3-
A-4-
E-x-