Dos Limones

La Trifásica

Hola hay les va un temaso de la trifasica

intro:

e|---------------------------------------------------------
B|---------------------------------------------------------
G|---------------------------------------------------------
D|---------------------------------------------------------
A|-----------7p5----------------------------7p5------------
E|--/12--0-------7-6-5--3b--0--3-5h6-7~-0-------7-6-5-----

e|---------------------------------------------------------
B|---------------------------------------------------------
G|---------------------------------------------------------
R|-----2~~-------------------------------------------------
A|-----------7p5-----------------------------7p5-----------
E|-3b------0-------7-6-5--3b--0--3-5h6-7~-0-------7-6-5----

e|---------------------------------------------------------
B|---------------------------------------------------------
G|--------------------------------------------------------- intro x2
D|---------------------------------------------------------
A|---------------------------------------------------------
E|-3b~~----------------------------------------------------


(Galiano) acordes:
E#79 A7
Dos limones, riff1 |-0--------5-----------------|
Noche, baile y carnaval, |-8--------5-----------------|
E#79 A7 |-7--------6-----8-----------|
En el yoti, |-6--------5-----7-----7-----|
habilita don pascual, riff2 |-7--------7-----6-----7-----|
B#79 A5 |-0--------5-----7-----5-----|
Dos limones, riff1 E#79 A7 B#79 A5
De esta noche no pasás.

Luces rojas,
Desde el fondo
punteo1
Hasta el portón,
Luces negras,
Piernas largas de rayón,
Luces blancas,
Como virgen de algodón.

(solo)

En el fondo, punteo2
Hay cerveza y nada más,
En el baño,
Tu hermanita va a entregar,
Dos limones,
Entregate en el zaguán.


riff1
e|---------------------------------------------------------|
B|---------------------------------------------------------|
G|---------------------------------------------------------|
D|-----------------------------------------------------(2)-|
A|-----7p5----------------------------7p5------------------|
E|--0-------7-6-5--3b--0--3-5h6-7~-0-------7-6-5--3b~~-----|

riff2 B#79
e|---------------------------------------------------------------|
B|---------------------------------------------------------------|
G|------------------------------------------------------------8--|
D|------------------------------------------------------------7--|
A|-----7p5----------------------------7p5---------------------6--|
E|--0-------7-6-5--3b--0--3-5h6-7~-0-------7-6-5--3-x-5-x-6-x-7--|

punteo1
e|---------------------------12---------12------------
B|-15b--15b---------------12----12--15b-----15-12-----
G|-14b--14b--12-14--12h13-----------------------------
D|----------------------------------------------------
A|----------------------------------------------------
E|----------------------------------------------------

e|----------------------------------------------------|
B|-----12---------------------------------------------|
G|-14-----12b-----------------------------------------|
D|-------------14p12----------------------------------|
A|---------------------14-13-12-0-0-------------------|
E|----------------------------------------------------|

punteo2
e|---------------------------------------------------------------------5|
B|---------------12-15p12----------------------------------------------5|
G|-------12~-14b----------14-14bp12----14-12b--------------------------6|
D|-12h14----------------------------14--------14p12--------------------5|
A|--------------------------------------------------14-13-12-10-12-10~-7|
E|---------------------------------------------------------------------5|


Bueno gente esto es todo mi mail es andres510_87@hotmail.com
un saludo al andru y al tesso!!jaja es mi primera tab!!